  0
SECTION
  2
HEADER
  9
$ACADVER
  1
AC1015
  9
$ACADMAINTVER
 70
     6
  9
$DWGCODEPAGE
  3
ANSI_1254
  9
$INSBASE
 10
0.0
 20
0.0
 30
0.0
  9
$EXTMIN
 10
0.0
 20
0.0
 30
0.0
  9
$EXTMAX
 10
279.4
 20
215.9
 30
0.0
  9
$LIMMIN
 10
0.0
 20
0.0
  9
$LIMMAX
 10
279.4
 20
215.9
  9
$ORTHOMODE
 70
     0
  9
$REGENMODE
 70
     1
  9
$FILLMODE
 70
     1
  9
$QTEXTMODE
 70
     0
  9
$MIRRTEXT
 70
     1
  9
$LTSCALE
 40
1.0
  9
$ATTMODE
 70
     1
  9
$TEXTSIZE
 40
3.5
  9
$TRACEWID
 40
1.0
  9
$TEXTSTYLE
  7
Standard
  9
$CLAYER
  8
0
  9
$CELTYPE
  6
ByLayer
  9
$CECOLOR
 62
   256
  9
$CELTSCALE
 40
1.0
  9
$DISPSILH
 70
     0
  9
$DIMSCALE
 40
1.0
  9
$DIMASZ
 40
3.5
  9
$DIMEXO
 40
1.0
  9
$DIMDLI
 40
3.75
  9
$DIMRND
 40
0.0
  9
$DIMDLE
 40
0.0
  9
$DIMEXE
 40
1.0
  9
$DIMTP
 40
0.0
  9
$DIMTM
 40
0.0
  9
$DIMTXT
 40
3.5
  9
$DIMCEN
 40
2.5
  9
$DIMTSZ
 40
0.0
  9
$DIMTOL
 70
     0
  9
$DIMLIM
 70
     0
  9
$DIMTIH
 70
     1
  9
$DIMTOH
 70
     1
  9
$DIMSE1
 70
     0
  9
$DIMSE2
 70
     0
  9
$DIMTAD
 70
     1
  9
$DIMZIN
 70
     0
  9
$DIMBLK
  1

  9
$DIMASO
 70
     1
  9
$DIMSHO
 70
     1
  9
$DIMPOST
  1

  9
$DIMAPOST
  1

  9
$DIMALT
 70
     0
  9
$DIMALTD
 70
     3
  9
$DIMALTF
 40
0.0393700787
  9
$DIMLFAC
 40
1.0
  9
$DIMTOFL
 70
     1
  9
$DIMTVP
 40
0.0
  9
$DIMTIX
 70
     0
  9
$DIMSOXD
 70
     0
  9
$DIMSAH
 70
     0
  9
$DIMBLK1
  1

  9
$DIMBLK2
  1

  9
$DIMSTYLE
  2
ISO-25
  9
$DIMCLRD
 70
     0
  9
$DIMCLRE
 70
     0
  9
$DIMCLRT
 70
     0
  9
$DIMTFAC
 40
1.0
  9
$DIMGAP
 40
1.524
  9
$DIMJUST
 70
     0
  9
$DIMSD1
 70
     0
  9
$DIMSD2
 70
     0
  9
$DIMTOLJ
 70
     0
  9
$DIMTZIN
 70
     0
  9
$DIMALTZ
 70
     0
  9
$DIMALTTZ
 70
     0
  9
$DIMUPT
 70
     0
  9
$DIMDEC
 70
     2
  9
$DIMTDEC
 70
     2
  9
$DIMALTU
 70
     2
  9
$DIMALTTD
 70
     3
  9
$DIMTXSTY
  7
Standard
  9
$DIMAUNIT
 70
     0
  9
$DIMADEC
 70
     2
  9
$DIMALTRND
 40
0.0
  9
$DIMAZIN
 70
     0
  9
$DIMDSEP
 70
    44
  9
$DIMATFIT
 70
     3
  9
$DIMFRAC
 70
     0
  9
$DIMLDRBLK
  1

  9
$DIMLUNIT
 70
     2
  9
$DIMLWD
 70
    -2
  9
$DIMLWE
 70
    -2
  9
$DIMTMOVE
 70
     0
  9
$LUNITS
 70
     2
  9
$LUPREC
 70
     2
  9
$SKETCHINC
 40
1.0
  9
$FILLETRAD
 40
10.0
  9
$AUNITS
 70
     0
  9
$AUPREC
 70
     2
  9
$MENU
  1
.
  9
$ELEVATION
 40
0.0
  9
$PELEVATION
 40
0.0
  9
$THICKNESS
 40
0.0
  9
$LIMCHECK
 70
     0
  9
$CHAMFERA
 40
0.0
  9
$CHAMFERB
 40
0.0
  9
$CHAMFERC
 40
0.0
  9
$CHAMFERD
 40
0.0
  9
$SKPOLY
 70
     0
  9
$TDCREATE
 40
2460608.530425266
  9
$TDUCREATE
 40
2460608.405425266
  9
$TDUPDATE
 40
2460608.530425336
  9
$TDUUPDATE
 40
2460608.405425336
  9
$TDINDWG
 40
0.0000000116
  9
$TDUSRTIMER
 40
0.0000000116
  9
$USRTIMER
 70
     1
  9
$ANGBASE
 50
0.0
  9
$ANGDIR
 70
     0
  9
$PDMODE
 70
     0
  9
$PDSIZE
 40
-1.0
  9
$PLINEWID
 40
0.0
  9
$SPLFRAME
 70
     0
  9
$SPLINETYPE
 70
     6
  9
$SPLINESEGS
 70
     8
  9
$HANDSEED
  5
D2
  9
$SURFTAB1
 70
     6
  9
$SURFTAB2
 70
     6
  9
$SURFTYPE
 70
     6
  9
$SURFU
 70
     6
  9
$SURFV
 70
     6
  9
$UCSBASE
  2

  9
$UCSNAME
  2

  9
$UCSORG
 10
0.0
 20
0.0
 30
0.0
  9
$UCSXDIR
 10
1.0
 20
0.0
 30
0.0
  9
$UCSYDIR
 10
0.0
 20
1.0
 30
0.0
  9
$UCSORTHOREF
  2

  9
$UCSORTHOVIEW
 70
     0
  9
$UCSORGTOP
 10
0.0
 20
0.0
 30
0.0
  9
$UCSORGBOTTOM
 10
0.0
 20
0.0
 30
0.0
  9
$UCSORGLEFT
 10
0.0
 20
0.0
 30
0.0
  9
$UCSORGRIGHT
 10
0.0
 20
0.0
 30
0.0
  9
$UCSORGFRONT
 10
0.0
 20
0.0
 30
0.0
  9
$UCSORGBACK
 10
0.0
 20
0.0
 30
0.0
  9
$PUCSBASE
  2

  9
$PUCSNAME
  2

  9
$PUCSORG
 10
0.0
 20
0.0
 30
0.0
  9
$PUCSXDIR
 10
1.0
 20
0.0
 30
0.0
  9
$PUCSYDIR
 10
0.0
 20
1.0
 30
0.0
  9
$PUCSORTHOREF
  2

  9
$PUCSORTHOVIEW
 70
     0
  9
$PUCSORGTOP
 10
0.0
 20
0.0
 30
0.0
  9
$PUCSORGBOTTOM
 10
0.0
 20
0.0
 30
0.0
  9
$PUCSORGLEFT
 10
0.0
 20
0.0
 30
0.0
  9
$PUCSORGRIGHT
 10
0.0
 20
0.0
 30
0.0
  9
$PUCSORGFRONT
 10
0.0
 20
0.0
 30
0.0
  9
$PUCSORGBACK
 10
0.0
 20
0.0
 30
0.0
  9
$USERI1
 70
     0
  9
$USERI2
 70
     0
  9
$USERI3
 70
     0
  9
$USERI4
 70
     0
  9
$USERI5
 70
     0
  9
$USERR1
 40
0.0
  9
$USERR2
 40
0.0
  9
$USERR3
 40
0.0
  9
$USERR4
 40
0.0
  9
$USERR5
 40
0.0
  9
$WORLDVIEW
 70
     1
  9
$SHADEDGE
 70
     3
  9
$SHADEDIF
 70
    70
  9
$TILEMODE
 70
     1
  9
$MAXACTVP
 70
    64
  9
$PINSBASE
 10
0.0
 20
0.0
 30
0.0
  9
$PLIMCHECK
 70
     0
  9
$PEXTMIN
 10
1.0000000000E+20
 20
1.0000000000E+20
 30
1.0000000000E+20
  9
$PEXTMAX
 10
-1.0000000000E+20
 20
-1.0000000000E+20
 30
-1.0000000000E+20
  9
$PLIMMIN
 10
0.0
 20
0.0
  9
$PLIMMAX
 10
420.0
 20
297.0
  9
$UNITMODE
 70
     0
  9
$VISRETAIN
 70
     1
  9
$PLINEGEN
 70
     0
  9
$PSLTSCALE
 70
     1
  9
$TREEDEPTH
 70
  3020
  9
$CMLSTYLE
  2
Standard
  9
$CMLJUST
 70
     0
  9
$CMLSCALE
 40
20.0
  9
$PROXYGRAPHICS
 70
     1
  9
$MEASUREMENT
 70
     1
  9
$CELWEIGHT
370
    -1
  9
$ENDCAPS
280
     0
  9
$JOINSTYLE
280
     0
  9
$LWDISPLAY
290
     1
  9
$INSUNITS
 70
     4
  9
$HYPERLINKBASE
  1

  9
$STYLESHEET
  1

  9
$XEDIT
290
     1
  9
$CEPSNTYPE
380
     0
  9
$PSTYLEMODE
290
     1
  9
$FINGERPRINTGUID
  2
{163c6560-2c46-4c42-80fe-3ec5996c4d56}
  9
$VERSIONGUID
  2
{FAEB1C32-E019-11D5-929B-00C0DF256EC4}
  9
$EXTNAMES
290
     1
  9
$PSVPSCALE
 40
0.0
  9
$OLESTARTUP
290
     0
  0
ENDSEC
  0
SECTION
  2
CLASSES
  0
CLASS
  1
ACDBDICTIONARYWDFLT
  2
AcDbDictionaryWithDefault
  3
ObjectDBX Classes
 90
        0
280
     0
281
     0
  0
CLASS
  1
VISUALSTYLE
  2
AcDbVisualStyle
  3
ObjectDBX Classes
 90
     4095
280
     0
281
     0
  0
CLASS
  1
MATERIAL
  2
AcDbMaterial
  3
ObjectDBX Classes
 90
     1153
280
     0
281
     0
  0
CLASS
  1
SCALE
  2
AcDbScale
  3
ObjectDBX Classes
 90
     1153
280
     0
281
     0
  0
CLASS
  1
TABLESTYLE
  2
AcDbTableStyle
  3
ObjectDBX Classes
 90
     4095
280
     0
281
     0
  0
CLASS
  1
MLEADERSTYLE
  2
AcDbMLeaderStyle
  3
ACDB_MLEADERSTYLE_CLASS
 90
     4095
280
     0
281
     0
  0
CLASS
  1
SUN
  2
AcDbSun
  3
SCENEOE
 90
     1153
280
     0
281
     0
  0
CLASS
  1
ACDBPLACEHOLDER
  2
AcDbPlaceHolder
  3
ObjectDBX Classes
 90
        0
280
     0
281
     0
  0
CLASS
  1
LAYOUT
  2
AcDbLayout
  3
ObjectDBX Classes
 90
        0
280
     0
281
     0
  0
ENDSEC
  0
SECTION
  2
TABLES
  0
TABLE
  2
VPORT
  5
8
330
0
100
AcDbSymbolTable
 70
     1
  0
VPORT
  5
29
330
8
100
AcDbSymbolTableRecord
100
AcDbViewportTableRecord
  2
*Active
 70
     0
 10
0.0
 20
0.0
 11
1.0
 21
1.0
 12
139.7
 22
107.95
 13
0.0
 23
0.0
 14
10.0
 24
10.0
 15
10.0
 25
10.0
 16
0.0
 26
0.0
 36
1.0
 17
0.0
 27
0.0
 37
0.0
 40
215.9
 41
1.2941176471
 42
50.0
 43
0.0
 44
0.0
 50
0.0
 51
0.0
 71
     0
 72
  2000
 73
     1
 74
     3
 75
     0
 76
     0
 77
     0
 78
     0
281
     0
 65
     1
110
0.0
120
0.0
130
0.0
111
1.0
121
0.0
131
0.0
112
0.0
122
1.0
132
0.0
 79
     0
146
0.0
  0
ENDTAB
  0
TABLE
  2
LTYPE
  5
5
330
0
100
AcDbSymbolTable
 70
     6
  0
LTYPE
  5
14
330
5
100
AcDbSymbolTableRecord
100
AcDbLinetypeTableRecord
  2
ByBlock
 70
     0
  3

 72
    65
 73
     0
 40
0.0
  0
LTYPE
  5
15
330
5
100
AcDbSymbolTableRecord
100
AcDbLinetypeTableRecord
  2
ByLayer
 70
     0
  3

 72
    65
 73
     0
 40
0.0
  0
LTYPE
  5
16
330
5
100
AcDbSymbolTableRecord
100
AcDbLinetypeTableRecord
  2
Continuous
 70
     0
  3
Solid line
 72
    65
 73
     0
 40
0.0
  0
LTYPE
  5
6E
330
5
100
AcDbSymbolTableRecord
100
AcDbLinetypeTableRecord
  2
HIDDEN
 70
     0
  3
Hidden __ __ __ __ __ __ __ __ __ __ __ __ __ __
 72
    65
 73
     2
 40
1.905
 49
1.27
 74
     0
 49
-0.635
 74
     0
  0
LTYPE
  5
6F
330
5
100
AcDbSymbolTableRecord
100
AcDbLinetypeTableRecord
  2
PHANTOM
 70
     0
  3
Phantom ______  __  __  ______  __  __  ______
 72
    65
 73
     6
 40
12.7
 49
6.35
 74
     0
 49
-1.27
 74
     0
 49
1.27
 74
     0
 49
-1.27
 74
     0
 49
1.27
 74
     0
 49
-1.27
 74
     0
  0
LTYPE
  5
70
330
5
100
AcDbSymbolTableRecord
100
AcDbLinetypeTableRecord
  2
CENTER
 70
     0
  3
Center ____ _ ____ _ ____ _ ____ _ ____ _ ____
 72
    65
 73
     4
 40
10.16
 49
6.35
 74
     0
 49
-1.27
 74
     0
 49
1.27
 74
     0
 49
-1.27
 74
     0
  0
LTYPE
  5
71
330
5
100
AcDbSymbolTableRecord
100
AcDbLinetypeTableRecord
  2
CENTERX2
 70
     0
  3
Center (2x) ________  __  ________  __  _____
 72
    65
 73
     4
 40
20.32
 49
12.7
 74
     0
 49
-2.54
 74
     0
 49
2.54
 74
     0
 49
-2.54
 74
     0
  0
LTYPE
  5
72
330
5
100
AcDbSymbolTableRecord
100
AcDbLinetypeTableRecord
  2
DOT2
 70
     0
  3
Dot (.5x) ........................................
 72
    65
 73
     2
 40
0.635
 49
0.0
 74
     0
 49
-0.635
 74
     0
  0
ENDTAB
  0
TABLE
  2
LAYER
  5
2
330
0
100
AcDbSymbolTable
 70
    17
  0
LAYER
  5
10
330
2
100
AcDbSymbolTableRecord
100
AcDbLayerTableRecord
  2
0
 70
     0
 62
     7
  6
Continuous
370
    -3
390
F
  0
LAYER
  5
73
330
2
100
AcDbSymbolTableRecord
100
AcDbLayerTableRecord
  2
FORMAT
 70
     0
 62
     7
  6
Continuous
370
    -3
390
F
  0
LAYER
  5
74
330
2
100
AcDbSymbolTableRecord
100
AcDbLayerTableRecord
  2
YARDIMCI_GEOMETRI
 70
     0
 62
    -6
  6
Continuous
290
     0
370
    -3
390
F
  0
LAYER
  5
75
330
2
100
AcDbSymbolTableRecord
100
AcDbLayerTableRecord
  2
SAYFA_CERCEVESI
 70
     0
 62
     7
  6
Continuous
370
    25
390
F
  0
LAYER
  5
76
330
2
100
AcDbSymbolTableRecord
100
AcDbLayerTableRecord
  2
ANTET
 70
     0
 62
     7
  6
Continuous
370
    -3
390
F
  0
LAYER
  5
77
330
2
100
AcDbSymbolTableRecord
100
AcDbLayerTableRecord
  2
OLCU
 70
     0
 62
   150
  6
Continuous
370
    -3
390
F
  0
LAYER
  5
78
330
2
100
AcDbSymbolTableRecord
100
AcDbLayerTableRecord
  2
METIN
 70
     0
 62
    96
  6
Continuous
370
    -3
390
F
  0
LAYER
  5
79
330
2
100
AcDbSymbolTableRecord
100
AcDbLayerTableRecord
  2
BALON
 70
     0
 62
     5
  6
Continuous
370
    -3
390
F
  0
LAYER
  5
7A
330
2
100
AcDbSymbolTableRecord
100
AcDbLayerTableRecord
  2
VURGU
 70
     0
 62
     7
  6
Continuous
370
    -3
390
F
  0
LAYER
  5
7B
330
2
100
AcDbSymbolTableRecord
100
AcDbLayerTableRecord
  2
SILIK
 70
     0
 62
     7
  6
Continuous
370
    -3
390
F
  0
LAYER
  5
7C
330
2
100
AcDbSymbolTableRecord
100
AcDbLayerTableRecord
  2
MODEL
 70
     0
 62
     7
  6
Continuous
370
    -3
390
F
  0
LAYER
  5
7D
330
2
100
AcDbSymbolTableRecord
100
AcDbLayerTableRecord
  2
DETAYLANDıRMA
 70
     0
 62
   190
  6
Continuous
370
    -3
390
F
  0
LAYER
  5
7E
330
2
100
AcDbSymbolTableRecord
100
AcDbLayerTableRecord
  2
TOLERANS
 70
     0
 62
   230
  6
Continuous
370
    -3
390
F
  0
LAYER
  5
7F
330
2
100
AcDbSymbolTableRecord
100
AcDbLayerTableRecord
  2
MERKEZ_CIZGILERI
 70
     0
 62
    30
  6
Continuous
370
    -3
390
F
  0
LAYER
  5
80
330
2
100
AcDbSymbolTableRecord
100
AcDbLayerTableRecord
  2
KESIT-DETAY_CIZGILERI
 70
     0
 62
     7
  6
Continuous
370
    -3
390
F
  0
LAYER
  5
81
330
2
100
AcDbSymbolTableRecord
100
AcDbLayerTableRecord
  2
\U+041E\U+0421\U+0415\U+0412\U+042B\U+0415
 70
     0
 62
     7
  6
Continuous
370
    -3
390
F
  0
LAYER
  5
82
330
2
100
AcDbSymbolTableRecord
100
AcDbLayerTableRecord
  2
\U+0412\U+041E\U+0414\U+042F\U+041D\U+042B\U+0415_\U+0417\U+041D\U+0410\U+041A\U+0418
 70
     0
 62
    11
  6
Continuous
370
    -3
390
F
  0
ENDTAB
  0
TABLE
  2
STYLE
  5
3
330
0
100
AcDbSymbolTable
 70
     1
  0
STYLE
  5
11
330
3
100
AcDbSymbolTableRecord
100
AcDbTextStyleTableRecord
  2
Standard
 70
     0
 40
0.0
 41
1.0
 50
0.0
 71
     0
 42
3.5
  3
txt
  4

  0
ENDTAB
  0
TABLE
  2
VIEW
  5
6
330
0
100
AcDbSymbolTable
 70
     0
  0
ENDTAB
  0
TABLE
  2
UCS
  5
7
330
0
100
AcDbSymbolTable
 70
     0
  0
ENDTAB
  0
TABLE
  2
APPID
  5
9
330
0
100
AcDbSymbolTable
 70
     1
  0
APPID
  5
12
330
9
100
AcDbSymbolTableRecord
100
AcDbRegAppTableRecord
  2
ACAD
 70
     0
  0
ENDTAB
  0
TABLE
  2
DIMSTYLE
  5
A
330
0
100
AcDbSymbolTable
 70
     1
100
AcDbDimStyleTable
  0
DIMSTYLE
105
27
330
A
100
AcDbSymbolTableRecord
100
AcDbDimStyleTableRecord
  2
ISO-25
 70
     0
 41
2.5
 42
0.625
 43
3.75
 44
1.25
 73
     0
 74
     0
 77
     1
 78
     8
140
2.5
141
2.5
143
0.0393700787
147
0.625
171
     3
172
     1
178
     0
271
     2
272
     2
274
     3
278
    44
283
     0
284
     8
340
11
  0
ENDTAB
  0
TABLE
  2
BLOCK_RECORD
  5
1
330
0
100
AcDbSymbolTable
 70
     3
  0
BLOCK_RECORD
  5
1F
330
1
100
AcDbSymbolTableRecord
100
AcDbBlockTableRecord
  2
*Model_Space
340
22
  0
BLOCK_RECORD
  5
1B
330
1
100
AcDbSymbolTableRecord
100
AcDbBlockTableRecord
  2
*Paper_Space
340
1E
  0
BLOCK_RECORD
  5
23
330
1
100
AcDbSymbolTableRecord
100
AcDbBlockTableRecord
  2
*Paper_Space0
340
26
  0
BLOCK_RECORD
  5
88
330
1
100
AcDbSymbolTableRecord
100
AcDbBlockTableRecord
  2
SW_CENTERMARKSYMBOL_0
340
0
102
{BLKREFS
331
93
102
}
  0
BLOCK_RECORD
  5
9E
330
1
100
AcDbSymbolTableRecord
100
AcDbBlockTableRecord
  2
SW_CENTERMARKSYMBOL_1
340
0
102
{BLKREFS
331
A9
102
}
  0
ENDTAB
  0
ENDSEC
  0
SECTION
  2
BLOCKS
  0
BLOCK
  5
20
330
1F
100
AcDbEntity
  8
0
100
AcDbBlockBegin
  2
*Model_Space
 70
     0
 10
0.0
 20
0.0
 30
0.0
  3
*Model_Space
  1

  0
ENDBLK
  5
21
330
1F
100
AcDbEntity
  8
0
100
AcDbBlockEnd
  0
BLOCK
  5
1C
330
1B
100
AcDbEntity
 67
     1
  8
0
100
AcDbBlockBegin
  2
*Paper_Space
 70
     0
 10
0.0
 20
0.0
 30
0.0
  3
*Paper_Space
  1

  0
ENDBLK
  5
1D
330
1B
100
AcDbEntity
 67
     1
  8
0
100
AcDbBlockEnd
  0
BLOCK
  5
24
330
23
100
AcDbEntity
  8
0
100
AcDbBlockBegin
  2
*Paper_Space0
 70
     0
 10
0.0
 20
0.0
 30
0.0
  3
*Paper_Space0
  1

  0
ENDBLK
  5
25
330
23
100
AcDbEntity
  8
0
100
AcDbBlockEnd
  0
BLOCK
  5
89
330
88
100
AcDbEntity
  8
0
100
AcDbBlockBegin
  2
SW_CENTERMARKSYMBOL_0
 70
     0
 10
0.0
 20
0.0
 30
0.0
  3
SW_CENTERMARKSYMBOL_0
  1

  0
LINE
  5
8B
330
88
100
AcDbEntity
  8
FORMAT
 62
     0
100
AcDbLine
 10
0.0
 20
0.0
 30
0.0
 11
0.0
 21
2.5
 31
0.0
  0
LINE
  5
8C
330
88
100
AcDbEntity
  8
FORMAT
 62
     0
100
AcDbLine
 10
0.0
 20
0.0
 30
0.0
 11
-2.5
 21
0.0
 31
0.0
  0
LINE
  5
8D
330
88
100
AcDbEntity
  8
FORMAT
 62
     0
100
AcDbLine
 10
0.0
 20
0.0
 30
0.0
 11
0.0
 21
-2.5
 31
0.0
  0
LINE
  5
8E
330
88
100
AcDbEntity
  8
FORMAT
 62
     0
100
AcDbLine
 10
0.0
 20
0.0
 30
0.0
 11
2.5
 21
0.0
 31
0.0
  0
LINE
  5
8F
330
88
100
AcDbEntity
  8
FORMAT
 62
     0
100
AcDbLine
 10
0.0
 20
5.0
 30
0.0
 11
0.0
 21
202.5
 31
0.0
  0
LINE
  5
90
330
88
100
AcDbEntity
  8
FORMAT
 62
     0
100
AcDbLine
 10
-5.0
 20
0.0
 30
0.0
 11
-202.5
 21
0.0
 31
0.0
  0
LINE
  5
91
330
88
100
AcDbEntity
  8
FORMAT
 62
     0
100
AcDbLine
 10
0.0
 20
-5.0
 30
0.0
 11
0.0
 21
-202.5
 31
0.0
  0
LINE
  5
92
330
88
100
AcDbEntity
  8
FORMAT
 62
     0
100
AcDbLine
 10
5.0
 20
0.0
 30
0.0
 11
202.5
 21
0.0
 31
0.0
  0
ENDBLK
  5
8A
330
88
100
AcDbEntity
  8
0
100
AcDbBlockEnd
  0
BLOCK
  5
9F
330
9E
100
AcDbEntity
  8
0
100
AcDbBlockBegin
  2
SW_CENTERMARKSYMBOL_1
 70
     0
 10
0.0
 20
0.0
 30
0.0
  3
SW_CENTERMARKSYMBOL_1
  1

  0
LINE
  5
A1
330
9E
100
AcDbEntity
  8
FORMAT
 62
     0
100
AcDbLine
 10
0.0
 20
0.0
 30
0.0
 11
0.0
 21
2.5
 31
0.0
  0
LINE
  5
A2
330
9E
100
AcDbEntity
  8
FORMAT
 62
     0
100
AcDbLine
 10
0.0
 20
0.0
 30
0.0
 11
-2.5
 21
0.0
 31
0.0
  0
LINE
  5
A3
330
9E
100
AcDbEntity
  8
FORMAT
 62
     0
100
AcDbLine
 10
0.0
 20
0.0
 30
0.0
 11
0.0
 21
-2.5
 31
0.0
  0
LINE
  5
A4
330
9E
100
AcDbEntity
  8
FORMAT
 62
     0
100
AcDbLine
 10
0.0
 20
0.0
 30
0.0
 11
2.5
 21
0.0
 31
0.0
  0
LINE
  5
A5
330
9E
100
AcDbEntity
  8
FORMAT
 62
     0
100
AcDbLine
 10
0.0
 20
5.0
 30
0.0
 11
0.0
 21
202.5
 31
0.0
  0
LINE
  5
A6
330
9E
100
AcDbEntity
  8
FORMAT
 62
     0
100
AcDbLine
 10
-5.0
 20
0.0
 30
0.0
 11
-202.5
 21
0.0
 31
0.0
  0
LINE
  5
A7
330
9E
100
AcDbEntity
  8
FORMAT
 62
     0
100
AcDbLine
 10
0.0
 20
-5.0
 30
0.0
 11
0.0
 21
-202.5
 31
0.0
  0
LINE
  5
A8
330
9E
100
AcDbEntity
  8
FORMAT
 62
     0
100
AcDbLine
 10
5.0
 20
0.0
 30
0.0
 11
202.5
 21
0.0
 31
0.0
  0
ENDBLK
  5
A0
330
9E
100
AcDbEntity
  8
0
100
AcDbBlockEnd
  0
ENDSEC
  0
SECTION
  2
ENTITIES
  0
LINE
  5
83
330
1F
100
AcDbEntity
  8
0
  6
Continuous
 62
     7
370
    25
100
AcDbLine
 10
26.9893617021
 20
-91.6489361702
 30
0.0
 11
465.9893617021
 21
-91.6489361702
 31
0.0
  0
LINE
  5
84
330
1F
100
AcDbEntity
  8
0
  6
Continuous
 62
     7
370
    25
100
AcDbLine
 10
465.9893617021
 20
308.3510638298
 30
0.0
 11
26.9893617021
 21
308.3510638298
 31
0.0
  0
CIRCLE
  5
85
330
1F
100
AcDbEntity
  8
0
  6
Continuous
 62
     7
370
    25
100
AcDbCircle
 10
26.9893617021
 20
108.3510638298
 30
0.0
 40
163.7
  0
CIRCLE
  5
86
330
1F
100
AcDbEntity
  8
0
  6
Continuous
 62
     7
370
    25
100
AcDbCircle
 10
26.9893617021
 20
108.3510638298
 30
0.0
 40
200.0
  0
LINE
  5
87
330
1F
100
AcDbEntity
  8
0
  6
Continuous
 62
     7
370
    25
100
AcDbLine
 10
465.9893617021
 20
308.3510638298
 30
0.0
 11
465.9893617021
 21
-91.6489361702
 31
0.0
  0
INSERT
  5
93
330
1F
100
AcDbEntity
  8
FORMAT
 62
     7
100
AcDbBlockReference
  2
SW_CENTERMARKSYMBOL_0
 10
26.9893617021
 20
108.3510638298
 30
0.0
  0
LINE
  5
94
330
1F
100
AcDbEntity
  8
0
  6
Continuous
 62
     7
370
    25
100
AcDbLine
 10
-820.85798132
 20
308.3510638298
 30
0.0
 11
-1259.35798132
 21
308.3510638298
 31
0.0
  0
LINE
  5
95
330
1F
100
AcDbEntity
  8
0
  6
Continuous
 62
     7
370
    25
100
AcDbLine
 10
-382.35798132
 20
308.3510638298
 30
0.0
 11
-820.85798132
 21
308.3510638298
 31
0.0
  0
LINE
  5
96
330
1F
100
AcDbEntity
  8
0
  6
Continuous
 62
     7
370
    25
100
AcDbLine
 10
-820.85798132
 20
-91.6489361702
 30
0.0
 11
-382.35798132
 21
-91.6489361702
 31
0.0
  0
LINE
  5
97
330
1F
100
AcDbEntity
  8
0
  6
Continuous
 62
     7
370
    25
100
AcDbLine
 10
-1259.35798132
 20
-91.6489361702
 30
0.0
 11
-820.85798132
 21
-91.6489361702
 31
0.0
  0
CIRCLE
  5
98
330
1F
100
AcDbEntity
  8
0
  6
Continuous
 62
     7
370
    25
100
AcDbCircle
 10
-820.85798132
 20
108.3510638298
 30
0.0
 40
163.7
  0
CIRCLE
  5
99
330
1F
100
AcDbEntity
  8
0
  6
Continuous
 62
     7
370
    25
100
AcDbCircle
 10
-820.85798132
 20
108.3510638298
 30
0.0
 40
200.0
  0
LINE
  5
9A
330
1F
100
AcDbEntity
  8
0
  6
Continuous
 62
     7
370
    25
100
AcDbLine
 10
-1259.35798132
 20
108.3510638298
 30
0.0
 11
-1259.35798132
 21
308.3510638298
 31
0.0
  0
LINE
  5
9B
330
1F
100
AcDbEntity
  8
0
  6
Continuous
 62
     7
370
    25
100
AcDbLine
 10
-1259.35798132
 20
-91.6489361702
 30
0.0
 11
-1259.35798132
 21
108.3510638298
 31
0.0
  0
LINE
  5
9C
330
1F
100
AcDbEntity
  8
0
  6
Continuous
 62
     7
370
    25
100
AcDbLine
 10
-382.35798132
 20
108.3510638298
 30
0.0
 11
-382.35798132
 21
308.3510638298
 31
0.0
  0
LINE
  5
9D
330
1F
100
AcDbEntity
  8
0
  6
Continuous
 62
     7
370
    25
100
AcDbLine
 10
-382.35798132
 20
-91.6489361702
 30
0.0
 11
-382.35798132
 21
108.3510638298
 31
0.0
  0
INSERT
  5
A9
330
1F
100
AcDbEntity
  8
FORMAT
 62
     7
100
AcDbBlockReference
  2
SW_CENTERMARKSYMBOL_1
 10
-820.85798132
 20
108.3510638298
 30
0.0
  0
LINE
  5
AA
330
1F
100
AcDbEntity
  8
0
  6
Continuous
 62
     7
370
    25
100
AcDbLine
 10
226.9893617021
 20
1092.8681395371
 30
0.0
 11
226.9893617021
 21
1331.3681395371
 31
0.0
  0
LINE
  5
AB
330
1F
100
AcDbEntity
  8
0
  6
Continuous
 62
     7
370
    25
100
AcDbLine
 10
226.9893617021
 20
454.3681395371
 30
0.0
 11
226.9893617021
 21
692.8681395371
 31
0.0
  0
LINE
  5
AC
330
1F
100
AcDbEntity
  8
0
  6
Continuous
 62
     7
370
    25
100
AcDbLine
 10
-173.0106382979
 20
1331.3681395371
 30
0.0
 11
-173.0106382979
 21
454.3681395371
 31
0.0
  0
LINE
  5
AD
330
1F
100
AcDbEntity
  8
0
  6
Continuous
 62
     7
370
    25
100
AcDbLine
 10
226.9893617021
 20
692.8681395371
 30
0.0
 11
465.9893617021
 21
692.8681395371
 31
0.0
  0
LINE
  5
AE
330
1F
100
AcDbEntity
  8
0
  6
Continuous
 62
     7
370
    25
100
AcDbLine
 10
465.9893617021
 20
1092.8681395371
 30
0.0
 11
226.9893617021
 21
1092.8681395371
 31
0.0
  0
LINE
  5
AF
330
1F
100
AcDbEntity
  8
0
  6
Continuous
 62
     7
370
    25
100
AcDbLine
 10
226.9893617021
 20
1092.8681395371
 30
0.0
 11
26.9893617021
 21
892.8681395371
 31
0.0
  0
LINE
  5
B0
330
1F
100
AcDbEntity
  8
0
  6
Continuous
 62
     7
370
    25
100
AcDbLine
 10
26.9893617021
 20
892.8681395371
 30
0.0
 11
226.9893617021
 21
692.8681395371
 31
0.0
  0
LINE
  5
B1
330
1F
100
AcDbEntity
  8
0
  6
Continuous
 62
     7
370
    25
100
AcDbLine
 10
-173.0106382979
 20
1331.3681395371
 30
0.0
 11
226.9893617021
 21
1331.3681395371
 31
0.0
  0
LINE
  5
B2
330
1F
100
AcDbEntity
  8
0
  6
Continuous
 62
     7
370
    25
100
AcDbLine
 10
-173.0106382979
 20
454.3681395371
 30
0.0
 11
226.9893617021
 21
454.3681395371
 31
0.0
  0
LINE
  5
B3
330
1F
100
AcDbEntity
  8
0
  6
Continuous
 62
     7
370
    25
100
AcDbLine
 10
465.9893617021
 20
1092.8681395371
 30
0.0
 11
465.9893617021
 21
692.8681395371
 31
0.0
  0
LINE
  5
B4
330
1F
100
AcDbEntity
  8
0
  6
Continuous
 62
     7
370
    25
100
AcDbLine
 10
1211.2654511621
 20
-91.6489361702
 30
0.0
 11
1649.7654511621
 21
-91.6489361702
 31
0.0
  0
LINE
  5
B5
330
1F
100
AcDbEntity
  8
0
  6
Continuous
 62
     7
370
    25
100
AcDbLine
 10
772.7654511621
 20
-91.6489361702
 30
0.0
 11
1211.2654511621
 21
-91.6489361702
 31
0.0
  0
LINE
  5
B6
330
1F
100
AcDbEntity
  8
0
  6
Continuous
 62
     7
370
    25
100
AcDbLine
 10
1211.2654511621
 20
308.3510638298
 30
0.0
 11
772.7654511621
 21
308.3510638298
 31
0.0
  0
LINE
  5
B7
330
1F
100
AcDbEntity
  8
0
  6
Continuous
 62
     7
370
    25
100
AcDbLine
 10
1649.7654511621
 20
308.3510638298
 30
0.0
 11
1211.2654511621
 21
308.3510638298
 31
0.0
  0
LINE
  5
B8
330
1F
100
AcDbEntity
  8
0
  6
Continuous
 62
     7
370
    25
100
AcDbLine
 10
1649.7654511621
 20
308.3510638298
 30
0.0
 11
1649.7654511621
 21
-91.6489361702
 31
0.0
  0
LINE
  5
B9
330
1F
100
AcDbEntity
  8
0
  6
Continuous
 62
     7
370
    25
100
AcDbLine
 10
772.7654511621
 20
308.3510638298
 30
0.0
 11
772.7654511621
 21
-91.6489361702
 31
0.0
  0
LINE
  5
BA
330
1F
100
AcDbEntity
  8
0
  6
Continuous
 62
     7
370
    25
100
AcDbLine
 10
-173.0106382979
 20
-287.6321524568
 30
0.0
 11
-173.0106382979
 21
-1164.6321524568
 31
0.0
  0
LINE
  5
BB
330
1F
100
AcDbEntity
  8
0
  6
Continuous
 62
     7
370
    25
100
AcDbLine
 10
226.9893617021
 20
-526.1321524568
 30
0.0
 11
226.9893617021
 21
-287.6321524568
 31
0.0
  0
LINE
  5
BC
330
1F
100
AcDbEntity
  8
0
  6
Continuous
 62
     7
370
    25
100
AcDbLine
 10
226.9893617021
 20
-1164.6321524568
 30
0.0
 11
226.9893617021
 21
-926.1321524568
 31
0.0
  0
LINE
  5
BD
330
1F
100
AcDbEntity
  8
0
  6
Continuous
 62
     7
370
    25
100
AcDbLine
 10
226.9893617021
 20
-926.1321524568
 30
0.0
 11
465.9893617021
 21
-926.1321524568
 31
0.0
  0
LINE
  5
BE
330
1F
100
AcDbEntity
  8
0
  6
Continuous
 62
     7
370
    25
100
AcDbLine
 10
465.9893617021
 20
-526.1321524568
 30
0.0
 11
226.9893617021
 21
-526.1321524568
 31
0.0
  0
LINE
  5
BF
330
1F
100
AcDbEntity
  8
0
  6
Continuous
 62
     7
370
    25
100
AcDbLine
 10
26.9893617021
 20
-726.1321524568
 30
0.0
 11
226.9893617021
 21
-926.1321524568
 31
0.0
  0
LINE
  5
C0
330
1F
100
AcDbEntity
  8
0
  6
Continuous
 62
     7
370
    25
100
AcDbLine
 10
226.9893617021
 20
-526.1321524568
 30
0.0
 11
26.9893617021
 21
-726.1321524568
 31
0.0
  0
LINE
  5
C1
330
1F
100
AcDbEntity
  8
0
  6
Continuous
 62
     7
370
    25
100
AcDbLine
 10
226.9893617021
 20
-1164.6321524568
 30
0.0
 11
-173.0106382979
 21
-1164.6321524568
 31
0.0
  0
LINE
  5
C2
330
1F
100
AcDbEntity
  8
0
  6
Continuous
 62
     7
370
    25
100
AcDbLine
 10
226.9893617021
 20
-287.6321524568
 30
0.0
 11
-173.0106382979
 21
-287.6321524568
 31
0.0
  0
LINE
  5
C3
330
1F
100
AcDbEntity
  8
0
  6
Continuous
 62
     7
370
    25
100
AcDbLine
 10
465.9893617021
 20
-526.1321524568
 30
0.0
 11
465.9893617021
 21
-926.1321524568
 31
0.0
  0
LINE
  5
C4
330
1F
100
AcDbEntity
  8
0
  6
Continuous
 62
     7
370
    25
100
AcDbLine
 10
1360.5842794537
 20
-870.6192555152
 30
0.0
 11
1571.012283131
 21
-749.1417547136
 31
0.0
  0
LINE
  5
C5
330
1F
100
AcDbEntity
  8
0
  6
Continuous
 62
     7
370
    25
100
AcDbLine
 10
1371.0285366038
 20
-402.7222097613
 30
0.0
 11
1160.6005329265
 21
-524.1997105629
 31
0.0
  0
LINE
  5
C6
330
1F
100
AcDbEntity
  8
0
  6
Continuous
 62
     7
370
    25
100
AcDbLine
 10
1160.6005329265
 20
-524.1997105629
 30
0.0
 11
950.5260826398
 21
-402.9263117893
 31
0.0
  0
LINE
  5
C7
330
1F
100
AcDbEntity
  8
0
  6
Continuous
 62
     7
370
    25
100
AcDbLine
 10
1570.6587297404
 20
-760.9212688235
 30
0.0
 11
1560.633042514
 21
-755.1335627825
 31
0.0
  0
LINE
  5
C8
330
1F
100
AcDbEntity
  8
0
  6
Continuous
 62
     7
370
    25
100
AcDbLine
 10
750.5423361126
 20
-749.3458567415
 30
0.0
 11
1370.6749832132
 21
-1107.3408137758
 31
0.0
  0
LWPOLYLINE
  5
C9
330
1F
100
AcDbEntity
  8
0
  6
Continuous
 62
     7
370
    25
100
AcDbPolyline
 90
      136
 70
   128
 43
0.0
 10
1586.7737899476
 20
-642.7549861901
 10
1586.6484419248
 20
-636.4636914057
 10
1586.2726693323
 20
-630.0412984182
 10
1585.6472860097
 20
-623.5017167007
 10
1584.7736463983
 20
-616.8591095311
 10
1583.6536426067
 20
-610.1278633173
 10
1582.2897003139
 20
-603.3225564398
 10
1580.6847735151
 20
-596.4579276777
 10
1578.8423381243
 20
-589.5488442885
 10
1576.7663844465
 20
-582.6102698083
 10
1574.4614085348
 20
-575.6572316443
 10
1571.932402454
 20
-568.7047885289
 10
1569.1848434681
 20
-561.7679979057
 10
1566.2246821779
 20
-554.8618833186
 10
1563.0583296338
 20
-548.0014018739
 10
1559.6926434501
 20
-541.2014118468
 10
1556.1349129538
 20
-534.4766405015
 10
1552.3928433968
 20
-527.8416521952
 10
1548.4745392686
 20
-521.3108168351
 10
1544.3884867433
 20
-514.8982787565
 10
1540.1435353009
 20
-508.6179260888
 10
1535.748878561
 20
-502.4833606774
 10
1531.2140343714
 20
-496.507868625
 10
1526.5488241949
 20
-490.7043915167
 10
1521.7633518379
 20
-485.0854983917
 10
1516.8679815678
 20
-479.6633585213
 10
1511.8733156666
 20
-474.449715053
 10
1506.7901714685
 20
-469.4558595777
 10
1501.6295579319
 20
-464.6926076743
 10
1496.4026517965
 20
-460.1702754858
 10
1491.1207733771
 20
-455.8986573766
 10
1485.7953620463
 20
-451.8870047203
 10
1480.437951459
 20
-448.1440058634
 10
1475.0601445738
 20
-444.6777673079
 10
1469.6735885227
 20
-441.4957961546
 10
1464.2899493868
 20
-438.6049838446
 10
1458.9208869296
 20
-436.0115912334
 10
1453.5780293447
 20
-433.7212350321
 10
1448.272948072
 20
-431.7388756422
 10
1443.0171327363
 20
-430.0688064127
 10
1437.8219662631
 20
-428.7146443417
 10
1432.6987002263
 20
-427.6793222426
 10
1427.6584304791
 20
-426.9650823926
 10
1422.7120731236
 20
-426.5734716761
 10
1417.8703408684
 20
-426.5053382348
 10
1413.1437198273
 20
-426.7608296305
 10
1408.542446809
 20
-427.3393925258
 10
1404.0764871462
 20
-428.2397738823
 10
1399.7555131132
 20
-429.4600236743
 10
1395.5888829776
 20
-430.9974991127
 10
1391.5856207323
 20
-432.8488703679
 10
1387.7543965519
 20
-435.0101277822
 10
1384.103508015
 20
-437.4765905531
 10
1380.6408621331
 20
-440.2429168716
 10
1377.3739582261
 20
-443.3031154908
 10
1374.3098716805
 20
-446.6505587019
 10
1371.4552386254
 20
-450.2779966885
 10
1368.8162415602
 20
-454.1775732275
 10
1366.3985959652
 20
-458.3408427045
 10
1364.2075379221
 20
-462.7587884048
 10
1362.247812775
 20
-467.421842042
 10
1360.5236648519
 20
-472.31990448
 10
1359.0388282735
 20
-477.4423676065
 10
1357.7965188651
 20
-482.7781373069
 10
1356.7994271922
 20
-488.3156574922
 10
1356.0497127334
 20
-494.0429351267
 10
1355.5489992033
 20
-499.9475662025
 10
1355.2983710358
 20
-506.0167626034
 10
1355.2983710358
 20
-512.2373798015
 10
1355.5489992033
 20
-518.5959453252
 10
1356.0497127334
 20
-525.0786879374
 10
1356.7994271922
 20
-531.6715674612
 10
1357.7965188651
 20
-538.3603051877
 10
1359.0388282735
 20
-545.1304148002
 10
1360.5236648519
 20
-551.9672337491
 10
1362.247812775
 20
-558.8559550067
 10
1364.2075379221
 20
-565.7816591369
 10
1366.3985959652
 20
-572.7293466067
 10
1368.8162415603
 20
-579.6839702721
 10
1371.4552386254
 20
-586.630467967
 10
1374.3098716805
 20
-593.553795124
 10
1377.3739582261
 20
-600.4389573583
 10
1380.6408621331
 20
-607.2710429416
 10
1384.103508015
 20
-614.0352550979
 10
1387.7543965519
 20
-620.71694405
 10
1391.5856207323
 20
-627.3016387473
 10
1395.5888829776
 20
-633.7750782075
 10
1399.7555131133
 20
-640.1232424021
 10
1404.0764871462
 20
-646.3323826212
 10
1408.542446809
 20
-652.3890512495
 10
1413.1437198273
 20
-658.2801308916
 10
1417.8703408684
 20
-663.9928627808
 10
1422.7120731236
 20
-669.5148744119
 10
1427.6584304791
 20
-674.8342063372
 10
1432.6987002263
 20
-679.9393380685
 10
1437.8219662631
 20
-684.819213027
 10
1443.0171327363
 20
-689.4632624903
 10
1448.272948072
 20
-693.8614284815
 10
1453.5780293447
 20
-698.0041855522
 10
1458.9208869296
 20
-701.8825614132
 10
1464.2899493868
 20
-705.4881563661
 10
1469.6735885227
 20
-708.813161495
 10
1475.0601445738
 20
-711.8503755791
 10
1480.437951459
 20
-714.5932206893
 10
1485.7953620463
 20
-717.0357564336
 10
1491.1207733771
 20
-719.1726928235
 10
1496.4026517965
 20
-720.9994017308
 10
1501.6295579319
 20
-722.5119269106
 10
1506.7901714685
 20
-723.7069925702
 10
1511.8733156666
 20
-724.5820104636
 10
1516.8679815678
 20
-725.1350854968
 10
1521.7633518379
 20
-725.3650198324
 10
1526.5488241949
 20
-725.2713154839
 10
1531.2140343714
 20
-724.8541753941
 10
1535.748878561
 20
-724.1145029954
 10
1540.1435353009
 20
-723.0539002536
 10
1544.3884867433
 20
-721.674664198
 10
1548.4745392686
 20
-719.9797819469
 10
1552.3928433968
 20
-717.9729242377
 10
1556.1349129538
 20
-715.6584374775
 10
1559.6926434501
 20
-713.041334329
 10
1563.0583296338
 20
-710.127282855
 10
1566.2246821779
 20
-706.9225942421
 10
1569.1848434681
 20
-703.4342091322
 10
1571.9324024541
 20
-699.6696825907
 10
1574.4614085348
 20
-695.6371677437
 10
1576.7663844465
 20
-691.3453981206
 10
1578.8423381243
 20
-686.8036687385
 10
1580.6847735151
 20
-682.0218159721
 10
1582.2897003139
 20
-677.0101962496
 10
1583.6536426067
 20
-671.7796636233
 10
1584.7736463983
 20
-666.3415462622
 10
1585.6472860097
 20
-660.7076219176
 10
1586.2726693323
 20
-654.890092415
 10
1586.6484419248
 20
-648.901557228
 10
1586.7737899476
 20
-642.7549861901
  0
LWPOLYLINE
  5
CA
330
1F
100
AcDbEntity
  8
0
  6
Continuous
 62
     7
370
    25
100
AcDbPolyline
 90
      151
 70
   128
 43
0.0
 10
1612.4417661047
 20
-657.5727934197
 10
1612.3177155476
 20
-650.6625444986
 10
1611.9457815032
 20
-643.6211927776
 10
1611.3266164702
 20
-636.4610911804
 10
1610.4613066745
 20
-629.1948009582
 10
1609.3513701634
 20
-621.8350696532
 10
1607.9987541428
 20
-614.3948087348
 10
1606.4058315608
 20
-606.887070949
 10
1604.5753969448
 20
-599.325027419
 10
1602.5106614993
 20
-591.7219445387
 10
1600.2152474716
 20
-584.0911606991
 10
1597.6931817981
 20
-576.446062888
 10
1594.948889039
 20
-568.8000632047
 10
1591.9871836162
 20
-561.1665753308
 10
1588.8132613675
 20
-553.558990998
 10
1585.4326904309
 20
-545.9906564942
 10
1581.8514014767
 20
-538.4748492499
 10
1578.0756773026
 20
-531.0247545448
 10
1574.1121418118
 20
-523.6534423767
 10
1569.9677483923
 20
-516.3738445319
 10
1565.6497677185
 20
-509.1987318987
 10
1561.1657749958
 20
-502.1406920626
 10
1556.5236366711
 20
-495.2121072239
 10
1551.7314966323
 20
-488.4251324748
 10
1546.7977619216
 20
-481.7916744753
 10
1541.731087986
 20
-475.3233705646
 10
1536.5403634934
 20
-469.0315683458
 10
1531.2346947383
 20
-462.9273057781
 10
1525.8233896665
 20
-457.021291812
 10
1520.315941546
 20
-451.3238876031
 10
1514.7220123123
 20
-445.8450883343
 10
1509.0514156179
 20
-440.5945056813
 10
1503.3140996164
 20
-435.5813509501
 10
1497.5201295096
 20
-430.8144189176
 10
1491.6796698899
 20
-426.3020724025
 10
1485.8029669081
 20
-422.0522275938
 10
1479.9003302981
 20
-418.0723401635
 10
1473.9821152902
 20
-414.3693921864
 10
1468.0587044446
 20
-410.9498798916
 10
1462.1404894367
 20
-407.8198022656
 10
1456.2378528267
 20
-404.9846505282
 10
1450.3611498448
 20
-402.4493984989
 10
1444.5206902251
 20
-400.2184938712
 10
1438.7267201184
 20
-398.29585041
 10
1432.9894041169
 20
-396.6848410852
 10
1427.3188074225
 20
-395.3882921546
 10
1421.7248781887
 20
-394.4084782055
 10
1416.2174300682
 20
-393.7471181646
 10
1410.8061249965
 20
-393.4053722821
 10
1405.5004562414
 20
-393.3838400964
 10
1400.3097317487
 20
-393.6825593823
 10
1395.2430578132
 20
-394.3010060847
 10
1390.3093231024
 20
-395.2380952379
 10
1385.5171830637
 20
-396.492182869
 10
1380.8750447389
 20
-398.0610688823
 10
1376.3910520162
 20
-399.9420009186
 10
1372.0730713425
 20
-402.1316791839
 10
1367.928677923
 20
-404.6262622385
 10
1363.9651424322
 20
-407.4213737361
 10
1360.1894182581
 20
-410.5121101012
 10
1356.6081293038
 20
-413.8930491321
 10
1353.2275583673
 20
-417.5582595129
 10
1350.0536361186
 20
-421.5013112191
 10
1347.0919306958
 20
-425.7152867982
 10
1344.3476379366
 20
-430.1927935051
 10
1341.8255722631
 20
-434.9259762715
 10
1339.5301582355
 20
-439.9065314865
 10
1337.4654227899
 20
-445.1257215639
 10
1335.634988174
 20
-450.5743902707
 10
1334.0420655919
 20
-456.2429787907
 10
1332.6894495713
 20
-462.1215424934
 10
1331.5795130603
 20
-468.1997683803
 10
1330.7142032645
 20
-474.4669931781
 10
1330.0950382315
 20
-480.9122220447
 10
1329.7231041871
 20
-487.5241478586
 10
1329.5990536301
 20
-494.2911710552
 10
1329.7231041871
 20
-501.2014199763
 10
1330.0950382315
 20
-508.2427716972
 10
1330.7142032645
 20
-515.4028732944
 10
1331.5795130603
 20
-522.6691635166
 10
1332.6894495713
 20
-530.0288948217
 10
1334.0420655919
 20
-537.4691557401
 10
1335.634988174
 20
-544.9768935259
 10
1337.4654227899
 20
-552.5389370559
 10
1339.5301582355
 20
-560.1420199362
 10
1341.8255722631
 20
-567.7728037758
 10
1344.3476379366
 20
-575.4179015869
 10
1347.0919306958
 20
-583.0639012702
 10
1350.0536361186
 20
-590.6973891441
 10
1353.2275583673
 20
-598.3049734769
 10
1356.6081293038
 20
-605.8733079807
 10
1360.1894182581
 20
-613.389115225
 10
1363.9651424322
 20
-620.83920993
 10
1367.928677923
 20
-628.2105220981
 10
1372.0730713425
 20
-635.4901199429
 10
1376.3910520162
 20
-642.6652325762
 10
1380.8750447389
 20
-649.7232724123
 10
1385.5171830637
 20
-656.6518572509
 10
1390.3093231024
 20
-663.438832
 10
1395.2430578132
 20
-670.0722899996
 10
1400.3097317487
 20
-676.5405939103
 10
1405.5004562414
 20
-682.832396129
 10
1410.8061249965
 20
-688.9366586968
 10
1416.2174300682
 20
-694.8426726628
 10
1421.7248781887
 20
-700.5400768717
 10
1427.3188074225
 20
-706.0188761405
 10
1432.9894041169
 20
-711.2694587936
 10
1438.7267201184
 20
-716.2826135248
 10
1444.5206902251
 20
-721.0495455573
 10
1450.3611498448
 20
-725.5618920724
 10
1456.2378528267
 20
-729.8117368811
 10
1462.1404894367
 20
-733.7916243114
 10
1468.0587044446
 20
-737.4945722885
 10
1473.9821152902
 20
-740.9140845833
 10
1479.9003302981
 20
-744.0441622093
 10
1485.8029669081
 20
-746.8793139467
 10
1491.6796698899
 20
-749.414565976
 10
1497.5201295096
 20
-751.6454706036
 10
1503.3140996164
 20
-753.5681140648
 10
1509.0514156179
 20
-755.1791233896
 10
1514.7220123123
 20
-756.4756723203
 10
1520.315941546
 20
-757.4554862694
 10
1525.8233896665
 20
-758.1168463103
 10
1531.2346947383
 20
-758.4585921928
 10
1536.5403634934
 20
-758.4801243785
 10
1541.731087986
 20
-758.1814050925
 10
1546.7977619216
 20
-757.5629583902
 10
1551.7314966323
 20
-756.625869237
 10
1556.5236366711
 20
-755.3717816058
 10
1561.1657749958
 20
-753.8028955925
 10
1565.6497677185
 20
-751.9219635563
 10
1569.9677483923
 20
-749.732285291
 10
1574.1121418118
 20
-747.2377022364
 10
1578.0756773026
 20
-744.4425907388
 10
1581.8514014767
 20
-741.3518543736
 10
1585.4326904309
 20
-737.9709153427
 10
1588.8132613675
 20
-734.3057049619
 10
1591.9871836162
 20
-730.3626532557
 10
1594.948889039
 20
-726.1486776766
 10
1597.6931817981
 20
-721.6711709698
 10
1600.2152474716
 20
-716.9379882034
 10
1602.5106614993
 20
-711.9574329884
 10
1604.5753969448
 20
-706.738242911
 10
1606.4058315608
 20
-701.2895742041
 10
1607.9987541428
 20
-695.6209856841
 10
1609.3513701634
 20
-689.7424219815
 10
1610.4613066745
 20
-683.6641960945
 10
1611.3266164702
 20
-677.3969712968
 10
1611.9457815032
 20
-670.9517424302
 10
1612.3177155476
 20
-664.3398166163
 10
1612.4417661047
 20
-657.5727934197
  0
ELLIPSE
  5
CB
330
1F
100
AcDbEntity
  8
0
  6
Continuous
 62
     7
370
    25
100
AcDbEllipse
 10
1160.6005329265
 20
-755.1335627825
 30
0.0
 11
282.842712474619
 21
3.410605131648481E-13
 31
0.0
210
0.0
220
0.0
230
1.0
 40
0.5773815452
 41
4.712388980384697
 42
5.49770587972005
  0
LINE
  5
CC
330
1F
100
AcDbEntity
  8
0
  6
Continuous
 62
     7
370
    25
100
AcDbLine
 10
1160.6005329265
 20
-524.1997105629
 30
0.0
 11
1160.6005329265
 21
-918.4417251597
 31
0.0
  0
LWPOLYLINE
  5
CD
330
1F
100
AcDbEntity
  8
0
  6
Continuous
 62
     7
370
    25
100
AcDbPolyline
 90
      136
 70
   128
 43
0.0
 10
966.2875894564
 20
-509.3130803127
 10
966.1622414336
 20
-503.1665092749
 10
965.7864688411
 20
-497.1779740878
 10
965.1610855186
 20
-491.3604445852
 10
964.2874459071
 20
-485.7265202406
 10
963.1674421155
 20
-480.2884028795
 10
961.8034998227
 20
-475.0578702532
 10
960.1985730239
 20
-470.0462505307
 10
958.3561376331
 20
-465.2643977643
 10
956.2801839553
 20
-460.7226683822
 10
953.9752080436
 20
-456.4308987591
 10
951.4462019629
 20
-452.3983839121
 10
948.6986429769
 20
-448.6338573706
 10
945.7384816867
 20
-445.1454722607
 10
942.5721291426
 20
-441.9407836478
 10
939.2064429589
 20
-439.0267321738
 10
935.6487124626
 20
-436.4096290254
 10
931.9066429056
 20
-434.0951422651
 10
927.9883387774
 20
-432.0882845559
 10
923.9022862521
 20
-430.3934023048
 10
919.6573348097
 20
-429.0141662493
 10
915.2626780698
 20
-427.9535635074
 10
910.7278338802
 20
-427.2138911088
 10
906.0626237037
 20
-426.7967510189
 10
901.2771513467
 20
-426.7030466704
 10
896.3817810766
 20
-426.932981006
 10
891.3871151754
 20
-427.4860560392
 10
886.3039709773
 20
-428.3610739326
 10
881.1433574407
 20
-429.5561395922
 10
875.9164513053
 20
-431.068664772
 10
870.6345728859
 20
-432.8953736793
 10
865.3091615551
 20
-435.0323100693
 10
859.9517509678
 20
-437.4748458136
 10
854.5739440826
 20
-440.2176909237
 10
849.1873880315
 20
-443.2549050079
 10
843.8037488956
 20
-446.5799101367
 10
838.4346864384
 20
-450.1855050896
 10
833.0918288535
 20
-454.0638809506
 10
827.7867475809
 20
-458.2066380214
 10
822.5309322451
 20
-462.6048040125
 10
817.3357657719
 20
-467.2488534758
 10
812.2124997351
 20
-472.1287284344
 10
807.1722299879
 20
-477.2338601656
 10
802.2258726325
 20
-482.553192091
 10
797.3841403772
 20
-488.075203722
 10
792.6575193361
 20
-493.7879356112
 10
788.0562463178
 20
-499.6790152533
 10
783.590286655
 20
-505.7356838817
 10
779.2693126221
 20
-511.9448241007
 10
775.1026824864
 20
-518.2929882953
 10
771.0994202411
 20
-524.7664277555
 10
767.2681960607
 20
-531.3511224528
 10
763.6173075238
 20
-538.0328114049
 10
760.1546616419
 20
-544.7970235612
 10
756.8877577349
 20
-551.6291091445
 10
753.8236711893
 20
-558.5142713788
 10
750.9690381342
 20
-565.4375985359
 10
748.3300410691
 20
-572.3840962307
 10
745.912395474
 20
-579.3387198961
 10
743.7213374309
 20
-586.2864073659
 10
741.7616122838
 20
-593.2121114961
 10
740.0374643607
 20
-600.1008327538
 10
738.5526277823
 20
-606.9376517026
 10
737.3103183739
 20
-613.7077613152
 10
736.313226701
 20
-620.3964990416
 10
735.5635122422
 20
-626.9893785654
 10
735.0627987121
 20
-633.4721211776
 10
734.8121705446
 20
-639.8306867013
 10
734.8121705446
 20
-646.0513038994
 10
735.0627987121
 20
-652.1205003003
 10
735.5635122422
 20
-658.0251313761
 10
736.313226701
 20
-663.7524090106
 10
737.3103183739
 20
-669.2899291959
 10
738.5526277823
 20
-674.6256988963
 10
740.0374643607
 20
-679.7481620228
 10
741.7616122838
 20
-684.6462244609
 10
743.7213374309
 20
-689.309278098
 10
745.912395474
 20
-693.7272237984
 10
748.3300410691
 20
-697.8904932754
 10
750.9690381342
 20
-701.7900698143
 10
753.8236711893
 20
-705.4175078009
 10
756.8877577349
 20
-708.7649510121
 10
760.1546616419
 20
-711.8251496313
 10
763.6173075238
 20
-714.5914759497
 10
767.2681960607
 20
-717.0579387206
 10
771.0994202411
 20
-719.2191961349
 10
775.1026824864
 20
-721.0705673901
 10
779.2693126221
 20
-722.6080428285
 10
783.590286655
 20
-723.8282926206
 10
788.0562463178
 20
-724.728673977
 10
792.6575193361
 20
-725.3072368723
 10
797.3841403772
 20
-725.562728268
 10
802.2258726325
 20
-725.4945948267
 10
807.172229988
 20
-725.1029841103
 10
812.2124997351
 20
-724.3887442603
 10
817.3357657719
 20
-723.3534221612
 10
822.5309322451
 20
-721.9992600901
 10
827.7867475809
 20
-720.3291908606
 10
833.0918288535
 20
-718.3468314707
 10
838.4346864384
 20
-716.0564752694
 10
843.8037488956
 20
-713.4630826583
 10
849.1873880315
 20
-710.5722703482
 10
854.5739440826
 20
-707.3902991949
 10
859.9517509678
 20
-703.9240606394
 10
865.3091615551
 20
-700.1810617825
 10
870.6345728859
 20
-696.1694091263
 10
875.9164513053
 20
-691.897791017
 10
881.1433574407
 20
-687.3754588285
 10
886.3039709773
 20
-682.6122069251
 10
891.3871151754
 20
-677.6183514498
 10
896.3817810766
 20
-672.4047079815
 10
901.2771513467
 20
-666.9825681111
 10
906.0626237037
 20
-661.3636749861
 10
910.7278338802
 20
-655.5601978779
 10
915.2626780698
 20
-649.5847058254
 10
919.6573348097
 20
-643.4501404141
 10
923.9022862521
 20
-637.1697877463
 10
927.9883387774
 20
-630.7572496677
 10
931.9066429056
 20
-624.2264143076
 10
935.6487124626
 20
-617.5914260014
 10
939.2064429589
 20
-610.866654656
 10
942.5721291426
 20
-604.0666646289
 10
945.7384816867
 20
-597.2061831842
 10
948.6986429769
 20
-590.3000685971
 10
951.4462019629
 20
-583.363277974
 10
953.9752080436
 20
-576.4108348585
 10
956.2801839553
 20
-569.4577966945
 10
958.3561376331
 20
-562.5192222143
 10
960.1985730239
 20
-555.6101388251
 10
961.8034998227
 20
-548.745510063
 10
963.1674421155
 20
-541.9402031855
 10
964.2874459071
 20
-535.2089569717
 10
965.1610855186
 20
-528.5663498021
 10
965.7864688411
 20
-522.0267680847
 10
966.1622414336
 20
-515.6043750972
 10
966.2875894564
 20
-509.3130803127
  0
LWPOLYLINE
  5
CE
330
1F
100
AcDbEntity
  8
0
  6
Continuous
 62
     7
370
    25
100
AcDbPolyline
 90
      151
 70
   128
 43
0.0
 10
991.9555656135
 20
-494.4952730831
 10
991.8315150564
 20
-487.7282498865
 10
991.459581012
 20
-481.1163240726
 10
990.8404159791
 20
-474.671095206
 10
989.9751061833
 20
-468.4038704083
 10
988.8651696722
 20
-462.3256445213
 10
987.5125536516
 20
-456.4470808187
 10
985.9196310696
 20
-450.7784922987
 10
984.0891964536
 20
-445.3298235918
 10
982.0244610081
 20
-440.1106335144
 10
979.7290469804
 20
-435.1300782994
 10
977.206981307
 20
-430.396895533
 10
974.4626885478
 20
-425.9193888262
 10
971.500983125
 20
-421.7054132471
 10
968.3270608763
 20
-417.7623615409
 10
964.9464899397
 20
-414.0971511601
 10
961.3652009855
 20
-410.7162121292
 10
957.5894768114
 20
-407.625475764
 10
953.6259413206
 20
-404.8303642665
 10
949.4815479011
 20
-402.3357812119
 10
945.1635672273
 20
-400.1461029466
 10
940.6795745046
 20
-398.2651709103
 10
936.0374361799
 20
-396.696284897
 10
931.2452961412
 20
-395.4421972658
 10
926.3115614304
 20
-394.5051081127
 10
921.2448874948
 20
-393.8866614103
 10
916.0541630022
 20
-393.5879421244
 10
910.7484942471
 20
-393.60947431
 10
905.3371891753
 20
-393.9512201925
 10
899.8297410549
 20
-394.6125802335
 10
894.2358118211
 20
-395.5923941825
 10
888.5652151267
 20
-396.8889431132
 10
882.8278991252
 20
-398.499952438
 10
877.0339290184
 20
-400.4225958992
 10
871.1934693987
 20
-402.6535005268
 10
865.3167664169
 20
-405.1887525561
 10
859.4141298069
 20
-408.0239042936
 10
853.495914799
 20
-411.1539819195
 10
847.5725039534
 20
-414.5734942143
 10
841.6542889455
 20
-418.2764421914
 10
835.7516523355
 20
-422.2563296218
 10
829.8749493536
 20
-426.5061744304
 10
824.0344897339
 20
-431.0185209456
 10
818.2405196272
 20
-435.785452978
 10
812.5032036257
 20
-440.7986077092
 10
806.8326069313
 20
-446.0491903623
 10
801.2386776975
 20
-451.5279896311
 10
795.731229577
 20
-457.22539384
 10
790.3199245053
 20
-463.131407806
 10
785.0142557502
 20
-469.2356703738
 10
779.8235312575
 20
-475.5274725926
 10
774.756857322
 20
-481.9957765032
 10
769.8231226112
 20
-488.6292345028
 10
765.0309825725
 20
-495.4162092519
 10
760.3888442477
 20
-502.3447940905
 10
755.904851525
 20
-509.4028339266
 10
751.5868708513
 20
-516.5779465599
 10
747.4424774318
 20
-523.8575444047
 10
743.478941941
 20
-531.2288565728
 10
739.7032177669
 20
-538.6789512778
 10
736.1219288126
 20
-546.1947585221
 10
732.7413578761
 20
-553.7630930259
 10
729.5674356274
 20
-561.3706773588
 10
726.6057302046
 20
-569.0041652326
 10
723.8614374454
 20
-576.6501649159
 10
721.3393717719
 20
-584.2952627271
 10
719.0439577443
 20
-591.9260465667
 10
716.9792222987
 20
-599.5291294469
 10
715.1487876828
 20
-607.0911729769
 10
713.5558651008
 20
-614.5989107627
 10
712.2032490801
 20
-622.0391716811
 10
711.0933125691
 20
-629.3989029862
 10
710.2280027733
 20
-636.6651932084
 10
709.6088377403
 20
-643.8252948056
 10
709.2369036959
 20
-650.8666465265
 10
709.1128531389
 20
-657.7768954477
 10
709.2369036959
 20
-664.5439186442
 10
709.6088377403
 20
-671.1558444581
 10
710.2280027733
 20
-677.6010733247
 10
711.0933125691
 20
-683.8682981225
 10
712.2032490801
 20
-689.9465240095
 10
713.5558651008
 20
-695.8250877121
 10
715.1487876828
 20
-701.4936762321
 10
716.9792222987
 20
-706.942344939
 10
719.0439577443
 20
-712.1615350164
 10
721.3393717719
 20
-717.1420902314
 10
723.8614374454
 20
-721.8752729978
 10
726.6057302046
 20
-726.3527797046
 10
729.5674356274
 20
-730.5667552837
 10
732.7413578761
 20
-734.5098069899
 10
736.1219288126
 20
-738.1750173707
 10
739.7032177669
 20
-741.5559564016
 10
743.478941941
 20
-744.6466927668
 10
747.4424774318
 20
-747.4418042643
 10
751.5868708513
 20
-749.9363873189
 10
755.904851525
 20
-752.1260655842
 10
760.3888442477
 20
-754.0069976205
 10
765.0309825725
 20
-755.5758836338
 10
769.8231226112
 20
-756.829971265
 10
774.756857322
 20
-757.7670604181
 10
779.8235312575
 20
-758.3855071205
 10
785.0142557502
 20
-758.6842264064
 10
790.3199245053
 20
-758.6626942207
 10
795.731229577
 20
-758.3209483382
 10
801.2386776975
 20
-757.6595882973
 10
806.8326069313
 20
-756.6797743482
 10
812.5032036257
 20
-755.3832254176
 10
818.2405196272
 20
-753.7722160928
 10
824.0344897339
 20
-751.8495726316
 10
829.8749493536
 20
-749.6186680039
 10
835.7516523355
 20
-747.0834159746
 10
841.6542889455
 20
-744.2482642372
 10
847.5725039534
 20
-741.1181866112
 10
853.495914799
 20
-737.6986743164
 10
859.4141298069
 20
-733.9957263394
 10
865.3167664169
 20
-730.015838909
 10
871.1934693987
 20
-725.7659941003
 10
877.0339290184
 20
-721.2536475852
 10
882.8278991252
 20
-716.4867155528
 10
888.5652151267
 20
-711.4735608216
 10
894.2358118211
 20
-706.2229781685
 10
899.8297410549
 20
-700.7441788997
 10
905.3371891753
 20
-695.0467746908
 10
910.7484942471
 20
-689.1407607248
 10
916.0541630022
 20
-683.036498157
 10
921.2448874948
 20
-676.7446959382
 10
926.3115614304
 20
-670.2763920276
 10
931.2452961412
 20
-663.642934028
 10
936.0374361799
 20
-656.8559592789
 10
940.6795745046
 20
-649.9273744402
 10
945.1635672273
 20
-642.8693346042
 10
949.4815479011
 20
-635.6942219709
 10
953.6259413206
 20
-628.4146241261
 10
957.5894768114
 20
-621.043311958
 10
961.3652009855
 20
-613.593217253
 10
964.9464899397
 20
-606.0774100086
 10
968.3270608763
 20
-598.5090755048
 10
971.500983125
 20
-590.901491172
 10
974.4626885478
 20
-583.2680032982
 10
977.206981307
 20
-575.6220036149
 10
979.7290469804
 20
-567.9769058037
 10
982.0244610081
 20
-560.3461219641
 10
984.0891964536
 20
-552.7430390838
 10
985.9196310696
 20
-545.1809955538
 10
987.5125536516
 20
-537.673257768
 10
988.8651696722
 20
-530.2329968497
 10
989.9751061833
 20
-522.8732655446
 10
990.8404159791
 20
-515.6069753224
 10
991.459581012
 20
-508.4468737252
 10
991.8315150564
 20
-501.4055220042
 10
991.9555656135
 20
-494.4952730831
  0
LWPOLYLINE
  5
CF
330
1F
100
AcDbEntity
  8
0
  6
Continuous
 62
     7
370
    25
100
AcDbPolyline
 90
       20
 70
   128
 43
0.0
 10
1612.0882127141
 20
-852.4902301174
 10
1611.964162157
 20
-845.7232069208
 10
1611.5922281126
 20
-839.1112811069
 10
1610.9730630797
 20
-832.6660522403
 10
1610.1077532839
 20
-826.3988274426
 10
1608.9978167728
 20
-820.3206015556
 10
1607.6452007522
 20
-814.4420378529
 10
1606.0522781702
 20
-808.773449333
 10
1604.2218435542
 20
-803.3247806261
 10
1602.1571081087
 20
-798.1055905487
 10
1599.861694081
 20
-793.1250353337
 10
1597.3396284076
 20
-788.3918525673
 10
1594.5953356484
 20
-783.9143458604
 10
1591.6336302256
 20
-779.7003702814
 10
1588.4597079769
 20
-775.7573185752
 10
1585.0791370403
 20
-772.0921081944
 10
1581.4978480861
 20
-768.7111691634
 10
1577.722123912
 20
-765.6204327983
 10
1573.7585884212
 20
-762.8253213007
 10
1570.6587297404
 20
-760.9212688235
  0
LWPOLYLINE
  5
D0
330
1F
100
AcDbEntity
  8
0
  6
Continuous
 62
     7
370
    25
100
AcDbPolyline
 90
       58
 70
   128
 43
0.0
 10
1370.6749832132
 20
-1107.3408137758
 10
1371.7195179519
 20
-1107.9313443532
 10
1376.0374986256
 20
-1110.1210226185
 10
1380.5214913483
 20
-1112.0019546547
 10
1385.1636296731
 20
-1113.570840668
 10
1389.9557697118
 20
-1114.8249282992
 10
1394.8895044226
 20
-1115.7620174524
 10
1399.9561783581
 20
-1116.3804641547
 10
1405.1469028508
 20
-1116.6791834407
 10
1410.4525716059
 20
-1116.657651255
 10
1415.8638766776
 20
-1116.3159053725
 10
1421.3713247981
 20
-1115.6545453316
 10
1426.9652540319
 20
-1114.6747313825
 10
1432.6358507263
 20
-1113.3781824519
 10
1438.3731667278
 20
-1111.767173127
 10
1444.1671368345
 20
-1109.8445296658
 10
1450.0075964542
 20
-1107.6136250382
 10
1455.8842994361
 20
-1105.0783730089
 10
1461.7869360461
 20
-1102.2432212715
 10
1467.705151054
 20
-1099.1131436455
 10
1473.6285618996
 20
-1095.6936313507
 10
1479.5467769075
 20
-1091.9906833736
 10
1485.4494135175
 20
-1088.0107959433
 10
1491.3261164993
 20
-1083.7609511346
 10
1497.166576119
 20
-1079.2486046195
 10
1502.9605462258
 20
-1074.481672587
 10
1508.6978622273
 20
-1069.4685178558
 10
1514.3684589217
 20
-1064.2179352027
 10
1519.9623881555
 20
-1058.7391359339
 10
1525.4698362759
 20
-1053.041731725
 10
1530.8811413477
 20
-1047.135717759
 10
1536.1868101028
 20
-1041.0314551912
 10
1541.3775345954
 20
-1034.7396529725
 10
1546.444208531
 20
-1028.2713490618
 10
1551.3779432418
 20
-1021.6378910622
 10
1556.1700832805
 20
-1014.8509163132
 10
1560.8122216052
 20
-1007.9223314745
 10
1565.296214328
 20
-1000.8642916384
 10
1569.6141950017
 20
-993.6891790051
 10
1573.7585884212
 20
-986.4095811603
 10
1577.722123912
 20
-979.0382689923
 10
1581.4978480861
 20
-971.5881742872
 10
1585.0791370403
 20
-964.0723670429
 10
1588.4597079769
 20
-956.5040325391
 10
1591.6336302256
 20
-948.8964482063
 10
1594.5953356484
 20
-941.2629603324
 10
1597.3396284076
 20
-933.6169606491
 10
1599.861694081
 20
-925.971862838
 10
1602.1571081087
 20
-918.3410789984
 10
1604.2218435542
 20
-910.7379961181
 10
1606.0522781702
 20
-903.1759525881
 10
1607.6452007522
 20
-895.6682148023
 10
1608.9978167728
 20
-888.2279538839
 10
1610.1077532839
 20
-880.8682225789
 10
1610.9730630797
 20
-873.6019323566
 10
1611.5922281126
 20
-866.4418307595
 10
1611.964162157
 20
-859.4004790385
 10
1612.0882127141
 20
-852.4902301174
  0
ENDSEC
  0
SECTION
  2
OBJECTS
  0
DICTIONARY
  5
C
330
0
100
AcDbDictionary
281
     1
  3
ACAD_GROUP
350
D
  3
ACAD_LAYOUT
350
1A
  3
ACAD_MLINESTYLE
350
17
  3
ACAD_PLOTSETTINGS
350
19
  3
ACAD_PLOTSTYLENAME
350
E
  3
ACAD_SCALELIST
350
47
  3
DWGPROPS
350
D1
  0
DICTIONARY
  5
D
102
{ACAD_REACTORS
330
C
102
}
330
C
100
AcDbDictionary
281
     1
  0
DICTIONARY
  5
1A
102
{ACAD_REACTORS
330
C
102
}
330
C
100
AcDbDictionary
281
     1
  3
Layout1
350
1E
  3
Layout2
350
26
  3
Model
350
22
  0
DICTIONARY
  5
17
102
{ACAD_REACTORS
330
C
102
}
330
C
100
AcDbDictionary
281
     1
  3
Standard
350
18
  0
DICTIONARY
  5
19
102
{ACAD_REACTORS
330
C
102
}
330
C
100
AcDbDictionary
281
     1
  0
ACDBDICTIONARYWDFLT
  5
E
102
{ACAD_REACTORS
330
C
102
}
330
C
100
AcDbDictionary
281
     1
  3
Normal
350
F
100
AcDbDictionaryWithDefault
340
F
  0
DICTIONARY
  5
47
102
{ACAD_REACTORS
330
C
102
}
330
C
100
AcDbDictionary
281
     1
  3
A0
350
48
  3
A1
350
49
  3
A2
350
4A
  3
A3
350
4B
  3
A4
350
4C
  3
A5
350
4D
  3
A6
350
4E
  3
A7
350
4F
  3
A8
350
50
  3
A9
350
51
  3
B0
350
52
  3
B1
350
53
  3
B2
350
54
  3
B3
350
55
  3
B4
350
56
  3
B5
350
57
  3
B6
350
58
  3
B7
350
59
  3
B8
350
5A
  3
B9
350
5B
  3
C0
350
5C
  3
C1
350
5D
  3
C2
350
5E
  3
C3
350
5F
  3
C4
350
60
  3
C5
350
61
  3
C6
350
62
  3
C7
350
63
  3
C8
350
64
  3
C9
350
65
  3
D0
350
66
  3
D1
350
67
  3
D2
350
68
  0
XRECORD
  5
D1
102
{ACAD_REACTORS
330
C
102
}
330
C
100
AcDbXrecord
280
     1
  1
DWGPROPS COOKIE
  2

  3

  4

  6

  7

  8
b.kav
  9

300
=
301
=
302
=
303
=
304
=
305
=
306
=
307
=
308
=
309
=
 40
0.0
 41
2460608.405425266
 42
2460608.405425336
  1

 90
        0
  0
LAYOUT
  5
1E
102
{ACAD_REACTORS
330
1A
102
}
330
1A
100
AcDbPlotSettings
  1

  2
none_device
  4

  6

 40
0.0
 41
0.0
 42
0.0
 43
0.0
 44
0.0
 45
0.0
 46
0.0
 47
0.0
 48
0.0
 49
0.0
140
0.0
141
0.0
142
1.0
143
1.0
 70
   688
 72
     1
 73
     0
 74
     5
  7

 75
    16
147
1.0
148
0.0
149
0.0
100
AcDbLayout
  1
Layout1
 70
     1
 71
     1
 10
0.0
 20
0.0
 11
420.0
 21
297.0
 12
0.0
 22
0.0
 32
0.0
 14
1.0000000000E+20
 24
1.0000000000E+20
 34
1.0000000000E+20
 15
-1.0000000000E+20
 25
-1.0000000000E+20
 35
-1.0000000000E+20
146
0.0
 13
0.0
 23
0.0
 33
0.0
 16
1.0
 26
0.0
 36
0.0
 17
0.0
 27
1.0
 37
0.0
 76
     0
330
1B
  0
LAYOUT
  5
26
102
{ACAD_REACTORS
330
1A
102
}
330
1A
100
AcDbPlotSettings
  1

  2
none_device
  4

  6

 40
0.0
 41
0.0
 42
0.0
 43
0.0
 44
0.0
 45
0.0
 46
0.0
 47
0.0
 48
0.0
 49
0.0
140
0.0
141
0.0
142
1.0
143
1.0
 70
   688
 72
     1
 73
     0
 74
     5
  7

 75
    16
147
1.0
148
0.0
149
0.0
100
AcDbLayout
  1
Layout2
 70
     1
 71
     2
 10
0.0
 20
0.0
 11
0.0
 21
0.0
 12
0.0
 22
0.0
 32
0.0
 14
0.0
 24
0.0
 34
0.0
 15
0.0
 25
0.0
 35
0.0
146
0.0
 13
0.0
 23
0.0
 33
0.0
 16
1.0
 26
0.0
 36
0.0
 17
0.0
 27
1.0
 37
0.0
 76
     0
330
23
  0
LAYOUT
  5
22
102
{ACAD_REACTORS
330
1A
102
}
330
1A
100
AcDbPlotSettings
  1

  2
none_device
  4
Letter_(8.50_x_11.00_Inches)
  6

 40
6.35
 41
6.35
 42
6.35000508
 43
6.35000508
 44
215.9
 45
279.4
 46
0.0
 47
0.0
 48
0.0
 49
0.0
140
0.0
141
0.0
142
1.0
143
1.0
 70
  1712
 72
     1
 73
     0
 74
     0
  7

 75
     0
147
1.0
148
0.0
149
0.0
100
AcDbLayout
  1
Model
 70
     1
 71
     0
 10
0.0
 20
0.0
 11
279.4
 21
215.9
 12
0.0
 22
0.0
 32
0.0
 14
0.0
 24
0.0
 34
0.0
 15
279.4
 25
215.9
 35
0.0
146
0.0
 13
0.0
 23
0.0
 33
0.0
 16
1.0
 26
0.0
 36
0.0
 17
0.0
 27
1.0
 37
0.0
 76
     0
330
1F
331
29
  0
MLINESTYLE
  5
18
102
{ACAD_REACTORS
330
17
102
}
330
17
100
AcDbMlineStyle
  2
Standard
 70
     0
  3

 62
   256
 51
90.0
 52
90.0
 71
     2
 49
0.5
 62
   256
  6
BYLAYER
 49
-0.5
 62
   256
  6
BYLAYER
  0
ACDBPLACEHOLDER
  5
F
102
{ACAD_REACTORS
330
E
102
}
330
E
  0
SCALE
  5
48
102
{ACAD_REACTORS
330
47
102
}
330
47
100
AcDbScale
 70
     0
300
1:1
140
1.0
141
1.0
290
     1
  0
SCALE
  5
49
102
{ACAD_REACTORS
330
47
102
}
330
47
100
AcDbScale
 70
     0
300
1:2
140
1.0
141
2.0
290
     0
  0
SCALE
  5
4A
102
{ACAD_REACTORS
330
47
102
}
330
47
100
AcDbScale
 70
     0
300
1:4
140
1.0
141
4.0
290
     0
  0
SCALE
  5
4B
102
{ACAD_REACTORS
330
47
102
}
330
47
100
AcDbScale
 70
     0
300
1:5
140
1.0
141
5.0
290
     0
  0
SCALE
  5
4C
102
{ACAD_REACTORS
330
47
102
}
330
47
100
AcDbScale
 70
     0
300
1:8
140
1.0
141
8.0
290
     0
  0
SCALE
  5
4D
102
{ACAD_REACTORS
330
47
102
}
330
47
100
AcDbScale
 70
     0
300
1:10
140
1.0
141
10.0
290
     0
  0
SCALE
  5
4E
102
{ACAD_REACTORS
330
47
102
}
330
47
100
AcDbScale
 70
     0
300
1:16
140
1.0
141
16.0
290
     0
  0
SCALE
  5
4F
102
{ACAD_REACTORS
330
47
102
}
330
47
100
AcDbScale
 70
     0
300
1:20
140
1.0
141
20.0
290
     0
  0
SCALE
  5
50
102
{ACAD_REACTORS
330
47
102
}
330
47
100
AcDbScale
 70
     0
300
1:30
140
1.0
141
30.0
290
     0
  0
SCALE
  5
51
102
{ACAD_REACTORS
330
47
102
}
330
47
100
AcDbScale
 70
     0
300
1:40
140
1.0
141
40.0
290
     0
  0
SCALE
  5
52
102
{ACAD_REACTORS
330
47
102
}
330
47
100
AcDbScale
 70
     0
300
1:50
140
1.0
141
50.0
290
     0
  0
SCALE
  5
53
102
{ACAD_REACTORS
330
47
102
}
330
47
100
AcDbScale
 70
     0
300
1:100
140
1.0
141
100.0
290
     0
  0
SCALE
  5
54
102
{ACAD_REACTORS
330
47
102
}
330
47
100
AcDbScale
 70
     0
300
2:1
140
2.0
141
1.0
290
     0
  0
SCALE
  5
55
102
{ACAD_REACTORS
330
47
102
}
330
47
100
AcDbScale
 70
     0
300
4:1
140
4.0
141
1.0
290
     0
  0
SCALE
  5
56
102
{ACAD_REACTORS
330
47
102
}
330
47
100
AcDbScale
 70
     0
300
8:1
140
8.0
141
1.0
290
     0
  0
SCALE
  5
57
102
{ACAD_REACTORS
330
47
102
}
330
47
100
AcDbScale
 70
     0
300
10:1
140
10.0
141
1.0
290
     0
  0
SCALE
  5
58
102
{ACAD_REACTORS
330
47
102
}
330
47
100
AcDbScale
 70
     0
300
100:1
140
100.0
141
1.0
290
     0
  0
SCALE
  5
59
102
{ACAD_REACTORS
330
47
102
}
330
47
100
AcDbScale
 70
     0
300
1/128" = 1'-0"
140
0.0078125
141
12.0
290
     0
  0
SCALE
  5
5A
102
{ACAD_REACTORS
330
47
102
}
330
47
100
AcDbScale
 70
     0
300
1/64" = 1'-0"
140
0.015625
141
12.0
290
     0
  0
SCALE
  5
5B
102
{ACAD_REACTORS
330
47
102
}
330
47
100
AcDbScale
 70
     0
300
1/32" = 1'-0"
140
0.03125
141
12.0
290
     0
  0
SCALE
  5
5C
102
{ACAD_REACTORS
330
47
102
}
330
47
100
AcDbScale
 70
     0
300
1/16" = 1'-0"
140
0.0625
141
12.0
290
     0
  0
SCALE
  5
5D
102
{ACAD_REACTORS
330
47
102
}
330
47
100
AcDbScale
 70
     0
300
3/32" = 1'-0"
140
0.09375
141
12.0
290
     0
  0
SCALE
  5
5E
102
{ACAD_REACTORS
330
47
102
}
330
47
100
AcDbScale
 70
     0
300
1/8" = 1'-0"
140
0.125
141
12.0
290
     0
  0
SCALE
  5
5F
102
{ACAD_REACTORS
330
47
102
}
330
47
100
AcDbScale
 70
     0
300
3/16" = 1'-0"
140
0.1875
141
12.0
290
     0
  0
SCALE
  5
60
102
{ACAD_REACTORS
330
47
102
}
330
47
100
AcDbScale
 70
     0
300
1/4" = 1'-0"
140
0.25
141
12.0
290
     0
  0
SCALE
  5
61
102
{ACAD_REACTORS
330
47
102
}
330
47
100
AcDbScale
 70
     0
300
3/8" = 1'-0"
140
0.375
141
12.0
290
     0
  0
SCALE
  5
62
102
{ACAD_REACTORS
330
47
102
}
330
47
100
AcDbScale
 70
     0
300
1/2" = 1'-0"
140
0.5
141
12.0
290
     0
  0
SCALE
  5
63
102
{ACAD_REACTORS
330
47
102
}
330
47
100
AcDbScale
 70
     0
300
3/4" = 1'-0"
140
0.75
141
12.0
290
     0
  0
SCALE
  5
64
102
{ACAD_REACTORS
330
47
102
}
330
47
100
AcDbScale
 70
     0
300
1" = 1'-0"
140
1.0
141
12.0
290
     0
  0
SCALE
  5
65
102
{ACAD_REACTORS
330
47
102
}
330
47
100
AcDbScale
 70
     0
300
1-1/2" = 1'-0"
140
1.5
141
12.0
290
     0
  0
SCALE
  5
66
102
{ACAD_REACTORS
330
47
102
}
330
47
100
AcDbScale
 70
     0
300
3" = 1'-0"
140
3.0
141
12.0
290
     0
  0
SCALE
  5
67
102
{ACAD_REACTORS
330
47
102
}
330
47
100
AcDbScale
 70
     0
300
6" = 1'-0"
140
6.0
141
12.0
290
     0
  0
SCALE
  5
68
102
{ACAD_REACTORS
330
47
102
}
330
47
100
AcDbScale
 70
     0
300
1'-0" = 1'-0"
140
12.0
141
12.0
290
     0
  0
ENDSEC
  0
EOF
